BADNAAMIYAN – Hate Story 4
 

Capo 1st fret 
strumming - D U CHUCK D UU CHUCK du

e-------------------------------------------
b-4/6-4-----------4-----------------------
g-----------6-6---------5-5/6-5-3\1----
d-------------------------------------------


e-----------------------------------------------------4-----
b----------------4-4/6-4-----------4-----------4-------6-
g-------1-3-6---------------6-6------5-5h6--------------
d-3-----------------------------------------------------------

Am                           G
Zindagani ke lamhon ko tere naam kar diya
Am                            G
Zindagani ke lamhon ko tere naam kar diya
  Em                     F           Am
Khud ko teri hi khatir badnaam kar diya
 G             F           Am
Badnaamiyan mili, tanhaiyaan badhi
Em             Dm          Am
Badnaamiyan mili, tanhaiyaan badhi (x2)

          Am       Dm          G      C
Main teri aankhon mein dekhta hoon khudko
           F                  G         Am
Tumko kya dikhta hai, meri nazron mein kaho
          F                C         G
Dekhte chaahte, subah ko shaam kar diya
 Em                     F            G
Khud ko teri hi khatir qurbaan kar diya
  G            F            Am
Badnaamiyan mili, tanhaiyaan badhi
Em             Dm            Am
Badnaamiyan mili, tanhaiyaan badhi

©2020 by Keep Playing