Boond Boond - Hate Story IV

(Intro & Fillers)

E----------------------------12----- 
B--13-12-12h13--------13--------15-- 
G-----------------14--------------- 

E--12-12h13-12h13p12------12--
B-------------------------15------
G---------------------------------


E-------------------------- 
B--12-13-15--12--------15-- 
G------------------12------ 
D-------------------------- 

E----------------------------12--
B-12------12-------------12------
G-----12--------13---------------
D-------------------14-----------


@1:07
E---------------------- 
B--10-12-12/13-12-10--- 
G---------------------- 


E-------------------12-12-12-12--
B-----15-15-15-15----------------
G-10-----------------------------


E--------------------------------(12)-(8times)-
B--10-12-12/13-13\12--10-10----------------

 

Rhythm - D U chuck UDU

Am     
Boond boond mein
Dm
Gum sa hai
     G
Ye saavan bhi toh
       E
Tum sa hai

Am
Ikk ajnabi ehsaas hai
      F
Kuch hai naya kuch khass hai

G
Kusoor ye saara
 F             C
Mausam ka hai

Am
Boond boond mein
Dm
Gum sa hai
       G
Ye saavan bhi toh
    E
Tum sa hai

Am           Dm
Chalne do manmarziyan
       G              E
Hone do gustakhiyan
Am                Dm
Phir kahaan ye fursatein
      G                 E
Phir kahaan nazdeekiyan

Am                  F
Keh do tum bhi kahin
Am                F 
Laapata to nahi
Am                 F
Dil tumhara bhi toh kuch
Am
Chahata toh nahi

Am           
Boond boond mein
Dm
Gum sa hai
G
Ye saavan bhi toh
E
Tum sa hai
 
Am            
Ikk ajnabi ehsaas hai
F
Kuch hai naya kuch khass hai
G
Kusoor ye saara
F              E
Mausam ka hai

©2020 by Keep Playing