Bulleya Intro & Solo

Tabs for Song : Bulleya Acoustic Rock Intro

 

Clean guitar intro (Play twice)

E|--------1-----------------5-------------------------------------------

B|-----------1-----------------6-----------6-------------------11-------

G|-----2-----------------5--------------0-----5-------------------10----

D|--0--------------------------------------------------------------------

A|------------------5/8------------------------------5/10-10------------

E|-----------------------------------6-----------------------------------

 

Main riff1 (play twice )

E|---------------------------------------------------------------------

B|--------6--5--6--8--6--5------------------6--5--6--8--6--5--------

G|-----7----------------------5--7-------------------------------5-----

D|----------------------------------------8--------------------------8--

A|-----------------------------------------------------------------------

E|-----------------------------------------------------------------------

 

Main riff2(play twice)

E|----------------------------------------------------------------------------------------------------------------

B|--------6--5--6--8--6--5----------6--5--6--8--6--5---------6--5--6--8--6--5---------6--5--6--8--6--5-----

G|-----7----------------------5--7----------------------5---------------------------5-------------------------5--

D|----------------------------------------------------------8---------------------------8--------------------------

©2019 by Keep Playing