Carnival of Rust - Easy Guitar Intro

Capo on 1st Fret

Intro part 1

E|-----------------------2------------------2h3--------------------------------2------------------2/3-----

B|-----------5-----------------5-----------------5-----------------5-----------------5-----------------5--

G|--------4--------4-----------------4--------------------------4--------4-----------------4--------------

D|--2-----------------------------------------------------5-----------------------------------------------

A|--------------------------------------------------------------------------------------------------------

E|--------------------------------------------------------------------------------------------------------

 

Intro part 2

E|--------------------------2------------------2/3-----------------------------------------0--------

B|--------------5-----------------5-----------------5--------------5--------------------7-----7-----

G|-----------5--------5-----------------5-----------------------------------------------------------

D|--------------------------------------------------------------5--------5-----------7-----------7--

A|-----0--------------------------------------------------3---------------------3/5-----------------

E|--------------------------------------------------------------------------------------------------

 

Intro part 3 ( same as part 1 )

E|--------------------------2------------------2h3--------------------------------2------------------2/3-----

B|--------------5-----------------5-----------------5-----------------5-----------------5-----------------5--

G|-----------4--------4-----------------4--------------------------4--------4-----------------4--------------

D|-----2-----------------------------------------------------5-----------------------------------------------

A|-----------------------------------------------------------------------------------------------------------

E|-----------------------------------------------------------------------------------------------------------

 

Intro part 4 ( Almost same as part 2 but just changes a bit in the end )

E|--------------------------2------------------2/3--------------------------------------2-----2-----

B|--------------5-----------------5-----------------5--------------5-----------------------5--------

G|-----------5--------5-----------------5--------------------------------------------4-----------4--

D|--------------------------------------------------------------5--------5--------------------------

A|-----0--------------------------------------------------3--------------------2--------------------

©2019 by Keep Playing