Choo Lo - The Local Train

Intro

 

E------0--------0----------------0----------0-------------
B---------0--------0-----------------0----------0---------
G-8h9--------9--------9---8h9----------9----------9---


E--------0----------0----------------0------------0------------
B-----------0-----------0----------------0-----------0---------
G--9/11--------11-----------11---11---------11----------11-

E------0-----------0----------------0-----------0-------------
B----------0----------0----------------0-----------0----------
G--13---------13---------13---13---------13---------13--


E------0---------0--------------0---------0---------------
B----------0---------0--------------0---------0------------
G--14--------14---------14--16--------16--------16---

Strumming - D D D UDUDD DU

         E           B       
Khada hoon aaj bhi waheen, 
 A                  B
ki dil phir bekarar hai
            E           B   
Khada hoon aaj bhi waheen, 
 A                B
ki tera intezaar hai

 

      C#m          Bsus 4        
Choo Lo jo mujhe tum kabhi,
   Asus2            Bsus4 
kho na jaoon main raat din

          C#m          Bsus 4          
Nazaron me tum ho basey..eeeyyyy... 
Asus2        Bsus4
eyyyyyyy..............


       C#m          Bsus 4 
Keh do jo tum ek baar, 
   Asus2           Bsus4
Mere ho bas tum mere
              
          C#m          Bsus 4          
Nazaron me tum ho basey..eeeyyyy... 
Asus2        Bsus4
eyyyyyyy..............
(Repeat these lines)

Tab part in between the song....

E--11h12--11h12--11h12--11h12--11--12/14--
B----------------------------------------------------------
G---------------------------------------------------------

E----------------------------------------------
B-12--12h14------10/12------------------
G----------------13----------11---11----8--


Arpeggios
E----7---------7--------7------7--------7------------
B-------0---------0----------------0-------0---------
G--9-------9---------9------8--------8--------8-9--


E-----7--------7---------------7----7-------
B--------0--------0-----5---5----5----4-5-
G--6--------6--------6-----------------------

©2020 by Keep Playing