Choti SI Aasha

(Intro)
A----------------------
E--5-3-2-3-5--3-2-3--
C----------------------
G----------------------


A-------------5-------------------
E--5-3-2-3-5-----5--3-2-3-2-----
C------------------------------2----
G---------------------------------


Rhythm - D D UDUDD DU

[Chorus]
        D      A    D           A
Dil hai chhota sa, chhoti si asha
    D        A      D           A
Masti bhare mann ki bholi si asha
          G                 C     A
Chaand taaron ko chhoone ki asha
      G       A        D
Aasmaanon mein udne ki asha

[Verse 1]
         D               A
Mahek jaaoon main aaj to aise
          D                  A
Phool bagiya mein maheke hai jaise
         G       Em       Em     A
Baadalon ki main odhoon chunariya
         G      Em         Em      A
Jhoom jaaoon main banke baawariya
        A       G         A      D
Apni choti mein baandh loon duniya

©2020 by Keep Playing