DDLJ Theme on UKULELE

A--0-0-0-0-7--5-7--3-5-8--7-7-7-7-7-7-7--
E---------------------------------------------
C---------------------------------------------
G---------------------------------------------


A--0-0-0-0-7-5-7--3-5-3--2-2-2-2-2-2-2--
E--------------------------------------------
C--------------------------------------------
G--------------------------------------------


A-0-2-----0-2-----0-3--2-2-2-2-2-2-2-------
E-------3-------3-----------------------------
C----------------------------------------------
G----------------------------------------------

©2020 by Keep Playing