Drop D Guitar Riff


E------------------------------------------
B------------------------------------------
G------------------------------------------
D-------------x-x--3h4-------------------
A---0--3h5---x-x-------5-----2--3--2----
D---0---------x-x----------0--2--3--2----

(play this 4 times)


E----------------------------------------------
B----------------------------------------------
G--------------------4--------------------3---
D-------------x-x------------------x-x------
A---0--3h5---x-x-------0--3h4---x-x------
D---0---------x-x-------0---------x-x------

E---------------------------------------------
B---------------------------------------------
G----------------------2---------------------
D--------------x-x--------------------------
A----0--3h5--x-x---------0--2-3--2-3--2--
D---0---------x-x---------0--2-3--2-3--2--

©2019 by Keep Playing