Heartless

(Baadshah)

 

Album – O.N.E. (Original Never Ends)
Singers – Badshah, Aastha Gill
Music & Lyrics – Badshah
Music Mix & Mastered by – Aditya Dev
Story & Direction – Gurickk G Maan
Music Label – Sony Music

 

 

 

 

Rhythm - D D UUDUD DU

 

(Intro)
E-------------------2------------2------------
B------3---------------3-------------3--------
G---------4-----------------------------4-----
D----------------------------------------------
A--2---------2-------------2-----------------
E----------------------------------------------


E------------------0h2-0----------0h2-0h2----
B------0-------------------------------------------
G--------------------------------------------------
D--2------2--2--------------2--------------------
A---------------------------------------------------
E---------------------------------------------------


(Bm)Mainu tu lai ja kitey 
(Em)door mereya haniya
(Bm)Mainu tu lai ja kitey (Em)door…

(Bm)Jithe pyar diyan rahwaan
(Em)Jithe thandiyan hawawaan
(Bm)Jithe ambaro’n baras da 
(Em)noor mere haniya

(Bm)Mainu tu lai ja kitey 
(Em)door mereya haniya
(Bm)Mainu tu lai ja kitey (Em)door(x2)


(Bm)Mainu tu (D)lai ja kitey 
(Em)door mereya (D)haniya
(Bm)Mainu tu (D)lai ja kitey (Em)door

Mujhe (Bm)maloom hai
Mera (D)chehra tere dil ka 
(Em)sukoon hai
Tu bhi (D)meri inn ragon mein behta 
(Bm)khoon hai
Kehne ko (D)door hai
Dil ke (Em)kareeb hai
Paise ka (D)nasha bhi jaan-e-jaana ik 
(Bm)junoon hai
Tujhe (D)kaise main bataaun
Tu (Em)kitni masoom hai
(D)Mujhe pataa hai tu hai 
(Bm)pareshan
Kyun ki (D)meri pehli album
Pichle (Em)do saalon se 
coming soon hai

Par tu (Bm)himmat naa haar
(D)Dil chhota mat kar
(Em)Saath mere chal mera 
(D)hath pakad kar
(Bm)Aankhon mein tu aansu leke 
(D)soya na kar
Baby (Em)Badshah ki jaan hai tu 
(D)roya na kar

Mainu tu lai ja kitey door mereya haniya
Mainu tu lai ja kitey door… (x3)


(again play Bm D Em D in a loop)
Gaane the sunte hum
Earphone ki ek taar tere kaan mein
Ek mere kaan mein
Seene pe rakh ke sir
Sitaron ko ungli se jod jod ke
Banaati thi tasveer aasmaan mein

©2020 by Keep Playing