Main Agar Kahoon

Intro

E--8-9-8-9-8-9-8------------
B----------------------11-9----
G-------------------------------
D-------------------------------
A-------------------------------
E-------------------------------


E------------------------------------
B--9-11-9-11-9-11--9-8---------
G------------------------------10---
D------------------------------------
A------------------------------------
E------------------------------------

E------------------------------------------------
B-------8------8------8------------------------
G--10-----10-----10-----10--8--------------
D---------------------------------------11-10--
A-------------------------------------------------
E-------------------------------------------------

Capo on 1st

Rhythm - D DUDU

Em                      B       Em
Tumko Paya Hai To Jaise Khoya Hoon
Em                            D
Kehna Chahoon Bhi To Tumse Kya Kahon
D               G        D          G
Kisi Zaban Mein Bhi Woh Labaz Hi Nahi
   Am                                B
Ki Jeenmein Tum Ho Kya Tumhein Mein Bata Sakun

Em          Am      D       Em
Main Aagar Kahoon Tumsa Haseen
Em        Am        D     Em       
Kaynaat Mein Nai Hai Kahin
Am             B                 Em
Tareef Yeh Bhi To Sach Hai Kuch Bhi Nahi

Em                           A
Shokhiyon Mein Dooobi Yeh Aadayein
Bm          Am         D
Chehre Se Jhalki Hui Hain
Em                      A
Zulf Ki Ghani Ghani Ghatayein
Bm          Am        D
Shaan Se Dhalki Hui Hain
B           Em       Bm       Em
Lehrata Aanchal Hai Jaise Badal
B                Am               B
Bhaahon Mein Bhari Hai Jaise Chandani
D            C       D        C
Roop Ki Chandani

 

©2020 by Keep Playing