Main Agar Kahoon - Ukulele

A--3-4-3-4-3-4-3----------
E----------------------6--4--
C-----------------------------
G-----------------------------


A-----------------------------
E--4-6-4-6-4-6--4-3------
C--------------------------5--
G-----------------------------


E-------------------------------------
A-----3-------3------3--------------
C-5-------5-------5-------5-3-1-0-
G--------------------------------------

Rhythm - D DUDU

Fm                      C       Fm
Tumko Paya Hai To Jaise Khoya Hoon
Fm                            D#
Kehna Chahoon Bhi To Tumse Kya Kahon


D#               G#        D#          G#
Kisi Zaban Mein Bhi Woh Labaz Hi Nahi
   Bbm                                C
Ki Jeenmein Tum Ho Kya Tumhein Mein Bata Sakun

Fm          Bbm      D#       Fm
Main Aagar Kahoon Tumsa Haseen
Fm        Bbm        D#     Fm       
Kaynaat Mein Nai Hai Kahin
Bbm             C                 Fm
Tareef Yeh Bhi To Sach Hai Kuch Bhi Nahi

Fm                           Bb
Shokhiyon Mein Dooobi Yeh Aadayein
Cm          Bbm         D#
Chehre Se Jhalki Hui Hain
Fm                      Bb
Zulf Ki Ghani Ghani Ghatayein
Cm          Bbm        D#
Shaan Se Dhalki Hui Hain
C           Fm       Cm       Fm
Lehrata Aanchal Hai Jaise Badal
C                Bbm               C
Bhaahon Mein Bhari Hai Jaise Chandani
D#            C#       D#        C#
Roop Ki Chandani............

©2020 by Keep Playing