Oh Humsafar - Neha Kakkar

Flute Intro

 

E-6-7-6-7--6h7p6-----6/7-6----
B-----------------------9------------
G------------------------------------

 

E---4-6-4-6--4h6p4-----4/6--4-----
B------------------------7---------------
G----------------------------------------


E--2-4--6--4h6p4----------------------------
B----------------------7--5--5/9---9-12-11--
G------------------------------------------------


E----------------------------------------------
B---------11-9---------9-------9------------
G---11-----------11-------11-----11-9-8--

 

E--6-7-6-7--6h7p6-------9/11--9--
B--------------------------9-------------
G----------------------------------------


E--4-6-4-6--4h6p4------4/6-4---
B-------------------------7-----------
G-------------------------------------

 

E---2-4-2-4--2h4p2-------------------------
B-------------------------5--5/11--9-12-11--
G------------------------------------------------


E--------------------------------------12-11--
B--------11-9--9-11-12-11-12-------------
G--11------------------------------------------

 

 

 

 

Rhythm - D D UUDUD DU


G#m
Mere to 
saare savere
F#
Baahon
mein teri tehre
D#m                   E
Meri to
saari shaamein
C#m                   G#m
Tere 
sath dhal rahi hai


G#m
Thoda
sa bhi shakk na karna
F#
Tum se
mera jeena marna
D#m                         E
Tum
chal rahe ho to saansein
C#m                    G#m
Meri 
sath chal rahi hain

 

C#m               B
Oh 
humsafar, oh humnava
E                      G#m
Beshart main 
tera hua x (2)


G#m
Pass
aao main tumhein
G#m
Dekh loon 
kareeb se
D#m
Aankhon ko yeh 
raahatein
E               G#m
Milti hain naseeb se x (2) 

 

 

(same as above)
Baajuon 
mein tum mujhe
Betahasha ghere ho
Kal ki
fikra hai kisko
Tum abhi to mere ho

©2020 by Keep Playing