My Heart Will Go On

E------------------------------------------------
B--5-7-7/9--9p7-5-7--12--9-7-5--7p5-2-0----
(Intro 1)


E-------------------------------------------------
B--5-7-7/9--9p7--5-7-12--9-12-12/14-12--9-7-
(intro 2)

E------------------------------------
B--5-5-5-5-6-5--5-6-5--7-7/9-7---
(every night...)


E----------------------
B--5-5-5-5-6-5--2-0--
(That is how...)


E-------------------------
B--5-7--5-7/12-10-9-7--
(near far...)


E--------------------------
B--9-10-9--7-5-4-5-2-0--
(i believe...)

E-------------------------
B--5-7--5-7/12-10-9-7--
(once more...)

E--------------------------------------------
B--9-10-9--7-5-4-5--5-4-4-5--7-7/9-7-5--
(and you are here............)
 

©2019 by Keep Playing