Tum He Ho

intro
A--------2------3----------------
E-----3-----3------3--5--2----
C--4-----------------------------
G--------------------------------

 

Hum tere bin ab
A---2--7--5-5--3-3--2---
E---3-----------------------
C---4-----------------------
G---0-----------------------


reh nahi sakte
A--2--0-0-3--2-2-0--
E--0--------------------
C--0--------------------
G--2-------------------


tere bina kya 
A--0-0-----0-0--------------------------
E--2----3--2----3--2h3p2-0----------
C--2-------2--------------------2--2/4--
G------------------------------------------


kyun ki tum he ho
A---------2------------0---2-----0--
E--3-5---3--3-5--3------0--3-----
C---------4----------------0--------
G---------0----------------2--------


zindegi 
A-----0------------------------------------------
E--2-----3--3-2--2h3p2-------------2-3-5--
C--2--------------------------2--2/4------------
G-------------------------------------------------

©2020 by Keep Playing