Tum Se - Jalebi

 

Singer – Jubin Nautiyal
Composed & produced by – Samuel Shetty & Akanksha Nandrekar
Lyrics – Manoj Kumar Nath
Film directed by – Pushpdeep Bhardwaj
Film Produced by – Vishesh Films
Music Label – Sony Music


 

Rhythm - D D UUDUD DU

Capo on 4th Fret

 

E----------------5-----------------5-----3--
B------------1------1-----------------1-----
G-------2-------------------2---------------
D--------------------------------------------
A--0-------------------0--------------------
E--------------------------------------------


E------------------3-1-0-----------------0--1p0--
B--------------1----------------------1-------------
G----------0---------------------2-----------------
D---------------------------------------------------
A----------------------------------------------------
E--3------------------------1-----------------------

 

 

 

 

Tere (F)naam se hi (G)roshan mera hai (Am)jahaan
Tere (F)sath se hi (G)raatein meri hain (Am)subah

Ow… mm…
(Am)Honge juda na hum, (Em)tum se (F)tum se
(Am)Aur kahein kya hum, (Em)tum se (F)tum se

Tere (F)naam se hi (G)roshan mera hai (Am)jahaan
Tere (F)sath se hi (G)raatein meri hain (Am)subah


(Am)Honge juda na hum, (Em)tum se (F)tum se
(Am)Aur kahein kya hum…

(Am)Tu dastaan koi, tu (G)hai koi ek nazm sa
(F)Sunta rahun tujhe main (G)ab sham-o-(Am)subah
(Am)Dil ka sukoon tu hi mar(G)ham har marz ka
(F)Tujh bin katey nahi ek (G)pal bhi ab (Am)mera

(same as before)
Tere naam se hi roshan mera hai jahaan
Tere sath se hi raatein meri hain subah
Honge juda na hum tumse tumse
Aur kahein kya hum tumse tumse…

(Am)Mera safar hai tu, tu (G)mera karwaan
(F)Ab har manzil tu hi, tu (G)hi hai (Am)rasta
(Am)Aisa hua asar yeh (G)tere ishq ka
(F)Dastak teri suney toh (G)dhadke dil (Am)mera

(same as before)
Tere naam se hi roshan mera hai jahaan
Tere sath se hi raatein meri hain subah
Honge juda na hum, tum se tum se

Aur kahein kya hum, tum se tum se
Honge juda na hum, tum se tum se
Aur kahein kya hum, tum se tum se

 

 

 

©2020 by Keep Playing